HOME          Zurück                    erstellt 20.10.2009 bis 2018


Gitarre
Skalen-Fingersatz für das Melodiespiel
 sind nur 5..6..7 Lagen-Skalenmuster zu lernen um das "ganze" Gitarren-Griffbrett melodisch zu bedienen.AUSWENDIG !!

Diese Muster zahnen so ineinander das alle 12 Grundtonareten durch Verschiebung der Muster auf den Griffbrett der Muster erreicht werden.

Meine
Methode:

1. Ich stelle mir die Notenpositionen nicht nur als MUSTER vor.
2. Ich ersetze zudem in diesen Mustern die Notennamen durch Zahlen.

Wie:
Hinterlege statt den Notennamen einer Tonleiter (C,D, E... usw.) einfach eine Zahl für jeden Punkt der Grafik, die für die Note der Skala steht.
--> Statt c-d-e-f-g-a-h-c-d.... usw sage ich  1-2-3-4-5-6-7-1-2.....

Beispiel für C_DUR:
Prime = 1 Sekunde = 2 usw. Oktave ist wieder 1. Prime     = 1  statt C in C-Dur
Sekunde = 2  statt D in C-Dur
Terz        = 3  statt E in  C-Dur
Quinte    = 4  statt F....
Quarte    = 5  statt G ....
Sexte      = 6   statt A ....
Septime  = 7   statt H ....
Oktave   = 8  statt C ' ....    usw..

Vorteil:
Ein einfaches Verschieben auf dem Griffbrett, ...schon hat man eine andere Tonart, und deren weiteren Töne gleich benannt.
Der "1er" Ton ist Prime. Fertig.

.
Somit ist der eigentliche Tonname innerhalb einer Tonart egal. ( Aber wissen muss man das schon ! )

Es geht nur um Intervalle ! Was Bach mit seinem wohltemperierten Klavier bewiesen hat.

Prime,Terz, Quinte sind ein Akkord. Man kann jedoch auch fach 1-3-5 sagen. Egal ob Moll oder Dur.
Achte jedoch darauf, nicht die richtgen Notennamen, deren Bedeutung und die Tonart aus den Augen zu verlieren.!!

Das grafische Skalenmuster für Dur und Moll über das ganze Griffbrett: 
     so etwa ist das gemeint:
  C-DUR-Skala




Sihe auch: https://www.hochweber.ch/theorie/Skalen-Griffbrett/skalen_auf_dem_griffbrett.htm


Vollständig und zerlegt in 5 Lagenmuster

Notenpositionen und Dur und Moll,  Prime=1 usw..
Startnoten und Benennung in Blau = Dur,    Grün = Moll.


Beim Spiel hat man dann nur die Grafik-Punktmuster im Kopf.
Link zum Download dieses merkzettels: MelodieScala.png   Tipp: Ausdrucken, Ausprobieren, in einem Bilderrahmen aufhängen und üben und somit auswendig lernen. 
Damit kann man zumindest onleiterrichtig, fehlerfrei Skalen und Melodien passend zum Akkord spielen.


Quintenzirkel:

oder 


Gute und brauchbare most-used Jazzakkorde für einfache Griffart...

Hier nochmal ein Downloadlink  Akkorde.JPG   Achtung 16MB    Einfach wegen der Qualität
    Mit rechter Maustaste --> Ziel speichern unter
    dann mit Windows Viewer ganzseitig ausdrucken..

JAZZ:
Um Melodien zu spielen ist es wichtig zu wissen, dass Jazzmusiker versuchen immer genau zu wissen welcher Akkord gerade aktuell ist, und desssen Töne in ihrer Wertigkeit nutzen.

.....ein reiner Akkord (Am = aMoll), kommt so gut wie nie vor.
Bsp: Am7  C13  Bm7 Bb13 -> Am7.. E11...E7+9

dazu die Kadenzen beachten:
statt I -IV-V7   wie in jedem Blues etc..
Jazziger --->  (IIm7-Imaj-IIm7), IIIm7(IV) , V7   in allen Variatioen, Umkehrungen, Parallelakkorden usw...

MERKE: Von Hause aus richtig lernen erspart falsch gelerntes abzugewöhnen.!

Machmal spiele ich im Regensburger Schottenportal Gitarre.
Es ist ein superschöner, kubischer Vorbau vor dem Portal aus Glas. Folge..eine wunderbare Akkustik-
KlangBsp: Oswald von Wolkenstein mit meiner Klassik Gitarre. Grad nix besseres da.. OswaldWS.mp3

Mein erster Gitarrenlehrer war John Pearse. Der hattte 1973 eine Gitarrenschule im Bayrischen 3. Fernsehen, Akkord & Rhythmus   https://de.wikipedia.org/wiki/John_Pearse
John Pearse

McGee's Rag 
Accordage : F# B E A C# F# Signature Rythmique: 4/4

| | | | | | | |
|--------3-------2-------1-------|0-------0-----------------------|
|--------------------------------|------4-------1-----------------|
|--------------------------------|----------------0---------------|
|--------------------------------|--------------------------------|
|----------------0-------2-------|3/--5/--------------------------|
|--------3-----------------------|------------------------3-------|

| | | | | | | |
|--------------------------------|--------------------------------|
|------3---------3-----1---------|--------0-----1-----------------|
|--------------2-----------------|0-----2-------------------------|
|--------3---------------3-------|----------------2---------------|
|--------------------------------|--------------------------------|
|1-------------------------------|3-----------------------3-------|

0:06 | | | | | | |
|--------3-------2-------1-------|0-------0-----------------------|
|--------------------------------|------4-------1-----------------|
|--------------------------------|----------------0---------------|
|--------------------------------|--------------------------------|
|3---------------0-------2-------|3/--5/--------------------------|
|--------3-----------------------|------------------------3-------|

| | | | | | | |
|----------------0-----2---------|--------0-----3---------------3-|
|3-------3-----3-----------------|0-----3---------------3---------|
|--------2---------------2-------|--------0---------------0-------|
|0---------------0---------------|--------------------------------|
|--------------------------------|--------------------------------|
|--------------------------------|3---------------3---------------|

0:11 | | | | | | |
|--------3-------2-------1-------|0-------0-----------------------|
|--------------------------------|------4-------1-----------------|
|--------------------------------|----------------0---------------|
|--------------------------------|--------------------------------|
|----------------0-------2-------|3/--5/--------------------------|
|3-------3-----------------------|------------------------3-------|

| | | | | | | |
|--------------------------------|----------------4---------------|
|------3---------3-----1---------|----0-----------5---------------|
|--------------2---------------0h|1h------1/----4-----------------|
|--------3---------------3-------|--------------------------------|
|--------------------------------|--------------------------------|
|1-------------------------------|0-----------------------0-------|

| | | | | | | |
|--------------------------------|--------0-------3---------------|
|----1-----------3-----------0---|--------------------------------|
|--------2-----------2-----------|--------0---------------0-------|
|--------------------------------|--------------------------------|
|--------------------------------|--------------------------------|
|1-----------2-----------1-------|3---------------3---------------|

| | | | | | | |
|--------------------------------|--------------------------------|
|------1---------0-----3---------|1-------------------------------|
|--------------2-----------------|--------------------------------|
|--------0---------------0-------|--------------------------------|
|--------------------------------|3---------------0-------2-------|
|2---------------3---------------|--------3-----------------------|

0:23 | | | | | | |
|--------3-------2-------1-------|0-------0-----------------------|
|--------------------------------|------4-------1-----------------|
|--------------------------------|----------------0---------------|
|--------------------------------|--------------------------------|
|3---------------0-------2-------|3/--5/--------------------------|
|--------3-----------------------|------------------------3-------|

| | | | | | | |
|--------------------------------|--------------------------------|
|------3---------3-----1---------|--------0-----1-----------------|
|--------------2-----------------|0-----2-------------------------|
|--------3---------------3-------|----------------2---------------|
|--------------------------------|--------------------------------|
|1-------------------------------|3-----------------------3-------|

0:27 | | | | | | |
|--------3-------2-------1-------|0-------0-----------------------|
|--------------------------------|------4-------1-----------------|
|--------------------------------|----------------0---------------|
|--------------------------------|--------------------------------|
|3---------------0-------2-------|3/--5/--------------------------|
|--------3-----------------------|------------------------3-------|

| | | | | | | |
|----------------0-----2---------|--------0-----3---------------3-|
|3-------3-----3-----------------|0-----3---------------3---------|
|--------2---------------2-------|--------0---------------0-------|
|0---------------0---------------|--------------------------------|
|--------------------------------|--------------------------------|
|--------------------------------|3---------------3---------------|

| 0:32 | | | | | | |
|--------3-------2-------1-------|0-------0-----------------------|
|--------------------------------|------4-------1-----------------|
|--------------------------------|----------------0---------------|
|--------------------------------|--------------------------------|
|----------------0-------2-------|3/--5/--------------------------|
|3-------3-----------------------|------------------------3-------|

| | | | | | | |
|--------------------------------|----------------4---------------|
|------3---------3-----1---------|----0-----------5---------------|
|--------------2---------------0h|1h------1/----4-----------------|
|--------3---------------3-------|--------------------------------|
|--------------------------------|--------------------------------|
|1-------------------------------|0-----------------------0-------|

0:37 | | | | | | |
|--------------------------------|----0-----------3---------------|
|----1-----------3---------------|--------0-----------0-----------|
|--------2-----------2-------0---|------------------------0---0p--|
|--------------------------------|--------------------------------|
|--------------------------------|------------2-------------------|
|1-----------2-----------1-------|3-------------------------------|

| | | | | | | |
|--------------------------------|--------------------------------|
|------1---------0-----3---------|1-------------------------------|
|2-------------2-----------------|--------------------------------|
|--------0---------------0-------|--------------------------------|
|--------------------------------|3---------------0-------2-------|
|2---------------3---------------|--------3-----------------------|

0:45 | | | | | | |
|--------3-------0---3-----------|3-------0---3-------0-----------|
|----------------------------1---|----1-----------------------1---|
|--------0---------------0-------|--------0---------------0-------|
|--------------------------------|--------------------------------|
|3---------------3---------------|3---------------3---------------|
|--------------------------------|--------------------------------|

| | | | | | | |
|0-------4-------0---4-----------|4-------0---4-------------------|
|------------0---------------0---|----0---------------0-----------|
|--------1---------------1-------|--------1---------------1-------|
|--------------------------------|--------------------------------|
|--------------------------------|--------------------------------|
|0---------------0---------------|0---------------0---------------|

0:47 | | | | | | |
|--------------------------------|----0-----------3---------------|
|--------1-------3---------------|------------0-------0-----------|
|--------2-------------2-------0-|--------0---------------0-------|
|------------------------3-------|--------------------------------|
|--------------------------------|--------------------------------|
|1---------------2---------------|3---------------3---------------|

| | | 0:52 | | | |
|--------------------------------|--------------------------------|
|----1-----------0---3-----------|1-------------------------------|
|------------2-------------------|--------------------------------|
|--------0---------------0-------|--------------------------------|
|--------------------------------|3---------------0-------2-------|
|2---------------3---------------|--------3-----------------------|

| | | | | | | |
|--------3-------0---3-----------|3-------0---3-------0-----------|
|----------------------------1---|----1-----------------------1---|
|--------0---------------0-------|--------0---------------0-------|
|--------------------------------|--------------------------------|
|3---------------3---------------|3---------------3---------------|
|--------------------------------|--------------------------------|

0:55 | | | | | | |
|0-------4-------0---4-----------|4-------0---4-------------------|
|------------0---------------0---|----0---------------0-----------|
|--------1---------------1-------|--------1---------------1-------|
|--------------------------------|--------------------------------|
|--------------------------------|--------------------------------|
|0---------------0---------------|0---------------0---------------|

| | | | | | | |
|--------------------------------|----0-----------3---------------|
|--------1-------3---------------|------------0-------0-----------|
|--------2-----------2-------0---|--------0---------------0-------|
|------------------------3-------|--------------------------------|
|--------------------------------|--------------------------------|
|1---------------2---------------|3---------------3---------------|

| | | | | | | |
|--------------------------------|--------------------------------|
|----1-----------0---3-----------|1-------1---------------1-------|
|------------2-------------------|--------0---------------0-------|
|--------0---------------0-------|--------2---------------2-------|
|--------------------------------|3-------------------------------|
|2---------------3---------------|----------------3---------------|

1:03 | | | | | | |
|----3-----------0---------------|----3-----------0---------------|
|------------4-------1-------1---|------------4-------1-------1---|
|--------0---------------2-------|--------0---------------2-------|
|--------------------------------|--------------------------------|
|3-------------------------------|3-------------------------------|
|--------------------------------|--------------------------------|

| | | | | | | |
|----3-----------0---------------|--------------------------------|
|------------4-------1-----------|--------0-------1---------------|
|--------0---------------2---0---|--------0-------0---------------|
|--------------------------------|--------0---------------2-------|
|3-------------------------------|----------------3---------------|
|--------------------------------|3-------------------------------|

1:07 | | | | | | |
|----3-----------0---------------|----3-----------0---------------|
|------------4-------1-------1---|------------4-------1-------1---|
|--------0---------------2-------|--------0---------------2-------|
|--------------------------------|--------------------------------|
|3-------------------------------|3-------------------------------|
|--------------------------------|--------------------------------|

| | | | | | | |
|----3-----------0---------------|--------------------------------|
|------------4-------1-----------|--------0-------1---------------|
|--------0---------------2---0---|--------0-------0---------------|
|--------------------------------|--------0-------2---------------|
|3-------------------------------|----------------3---------------|
|--------------------------------|3-----------------------0-------|

| | | | | | | |
|--------------------------------|3-------1-----------------------|
|--------1-------3-------1-------|--------------------1-----------|
|--------------------------------|------------------------2-------|
|--------3---------------3-------|--------3-----------------------|
|--------------------------------|--------------------------------|
|1---------------1---------------|1---------------1---------------|

| | | | | | | |
|--------------------------------|--------------------------------|
|----1---------------0-----------|1-------1-----------------------|
|------------0-------------------|--------0-----------------------|
|--------2---------------0-------|--------------------------------|
|3-------------------------------|3-------------------------------|
|----------------3---------------|----------------0-------2-------|

| | | | | | | |
|--------1-----------3-----------|--------------------------------|
|--------------------------------|--------1-----------0-----------|
|--------0---------------0-------|--------2---------------0-------|
|--------------------------------|--------------------------------|
|--------------------------------|--------------------------------|
|3---------------3---------------|1---------------3---------------|

| | | | | | | |
|--------------------------------|--------------------------------|
|1-----------1---------------1---|--------1-------3-------1-------|
|--------------------0-----------|--------------------------------|
|--------------------------------|--------2---------------2-------|
|3---------------0-------2-------|3---------------3---------------|
|--------3-----------------------|--------------------------------|

1:21 | | | | | | |
|--------0-----------0-----------|--------0-----------0-----------|
|----------------3-----------0---|----------------3---------------|
|--------0---------------0-------|--------1---------------1-------|
|--------------------------------|--------------------------------|
|3---------------3---------------|2---------------2---------------|
|--------------------------------|--------------------------------|

| | | | | | | |
|--------0---------------0-------|--------------------------------|
|----------------3---------------|--------1-------3---------------|
|--------2---------------2-------|--------2-------2-----------0---|
|--------------------------------|------------------------3-------|
|0---------------0---------------|--------------------------------|
|--------------------------------|1---------------2---------------|

| | | | | | | |
|----0-----------3---------------|--------------------------------|
|--------------------------------|----1---------------0-----------|
|--------0---------------0-------|------------2-------------------|
|--------------------------------|--------0---------------0-------|
|3---------------2---------------|--------------------------------|
|--------------------------------|2---------------3---------------|

| | | | | | | |
|--------------------0-----------|--------------------------------|
|--------1-----------------------|1-------------------------------|
|------------------------0-------|--------------------------------|
|--------2-----------------------|--------------------------------|
|3-------------------------------|3---------------0-------2-------|
|----------------3---------------|--------3-----------------------|

1:30 | | | | | | |
|--------0---------------0-------|--------0---------------0-------|
|----------------3---------------|----------------3---------------|
|--------0---------------0-------|--------1---------------1-------|
|--------------------------------|--------------------------------|
|3---------------3---------------|2---------------2---------------|
|--------------------------------|--------------------------------|

| | | | | | | |
|----0-------0-------------------|--------------------------------|
|--------------------3-----------|--------1-------3---------------|
|--------2---------------2-------|--------2-------2-----------0---|
|--------------------------------|------------------------3-------|
|0---------------0---------------|--------------------------------|
|--------------------------------|1---------------2---------------|

| | | | | | | |
|----0-----------3---------------|--------------------------------|
|--------------------------------|----1-----------0---------------|
|--------0---------------0-------|--------------------------------|
|--------------------------------|--------0---------------0-------|
|3---------------2---------------|--------------------------------|
|--------------------------------|2---------------3---------------|

| | | | | | | |
|--------------------0-----------|--------------------------------|
|--------1-----------------------|1---------------3-------4-------|
|--------0---------------0-------|--------0-----------------------|
|--------------------------------|--------------------------------|
|3-------------------------------|3-------------------------------|
|----------------3---------------|--------------------------------|

| | | | | | | |
|--------0-----------0-----------|0-------------------0-----------|
|----------------3-----------0---|----0-------3-------------------|
|--------1---------------1-------|--------1---------------1-------|
|--------------------------------|--------------------------------|
|--------------------------------|--------------------------------|
|0---------------0---------------|0---------------0---------------|

| | | | | | | |
|--------0-----------0-----------|0-------------------0-----------|
|----------------3-----------1---|------------3-------------------|
|--------2---------------2-------|--------2---------------2-------|
|--------------------------------|--------------------------------|
|0---------------0---------------|0---------------0---------------|
|--------------------------------|--------------------------------|

| | | | | | | |
|--------0---------------0-------|------------0-------------------|
|----------------3---------------|----0---------------3-----------|
|--------1---------------1-------|--------1---------------1-------|
|--------------------------------|--------------------------------|
|2---------------2---------------|2---------------2---------------|
|--------------------------------|--------------------------------|

| | | | | | | |
|--------0---------------0-------|5-------0---------------0-------|
|----------------3/--4-----------|----------------4c--------------|
|--------------------------------|--------------------------------|
|--------------------------------|--------------------------------|
|0-------------------------------|--------------------------------|
|--------------------------------|--------------------------------|

| | | | | | | |
|--------------------------------|----0-----------3---------------|
|--------1-------3---------------|--------------------------------|
|--------2-------2-----------0---|--------0---------------0-------|
|------------------------3-------|--------------------------------|
|--------------------------------|3---------------2---------------|
|1---------------2---------------|--------------------------------|

| | | | | | | |
|--------------------------------|--------------------------------|
|----1---------------0-----------|--------1-----------1h--3-----1/|
|--------2---------------0-------|--------0-----------------------|
|--------------------------------|--------------------------------|
|--------------------------------|3---------------3---------------|
|2---------------3---------------|--------------------------------|

1:53 | | | | | | |
|----------------0---------------|------------0-------------------|
|3-------3-----------------------|----3---------------3-----------|
|--------5---------------5-------|--------5---------------5-------|
|--------------------------------|--------------------------------|
|5-------------------------------|5-------------------------------|
|----------------5---------------|----------------5---------------|

| | | | | | | |
|--------3-----------------------|--------------------------------|
|--------------------3-----------|5-----------3-------5-----------|
|--------4---------------4-------|--------4---------------4-------|
|--------------------------------|--------------------------------|
|--------------------------------|--------------------------------|
|3---------------3---------------|3---------------3---------------|

| | | | | | | |
|----------------0---------------|------------0-------------------|
|3-------3-----------------------|----3---------------3-----------|
|--------5---------------5-------|--------5---------------5-------|
|--------------------------------|--------------------------------|
|5-------------------------------|5-------------------------------|
|----------------5---------------|----------------5---------------|

2:00 | | | | | | |
|3-----------3-------------------|5---------------6---------------|
|----3---------------3-----------|--------------------------------|
|--------4---------------4-------|--------0---------------0-------|
|--------------------------------|--------------------------------|
|--------------------------------|--------------------------------|
|3---------------3---------------|--------------------------------|

| | | | | | | |
|------------7-------------------|8-----------7-------------------|
|----0---------------0-----------|----0---------------0-----------|
|--------7---------------7-------|--------7---------------7-------|
|--------------------------------|--------------------------------|
|7---------------7---------------|7---------------7---------------|
|--------------------------------|--------------------------------|

| | | | | | | |
|5-----------5-------------------|7-----------5-------------------|
|----5---------------5-----------|----5---------------5-----------|
|--------6---------------6-------|--------6---------------6-------|
|--------------------------------|--------------------------------|
|--------------------------------|--------------------------------|
|5---------------5---------------|5---------------5---------------|

| | | | | | | |
|----------------0---------------|------------0-------------------|
|3-------3-----------------------|----3---------------3-----------|
|--------5---------------5-------|--------5---------------5-------|
|--------------------------------|--------------------------------|
|5-------------------------------|5-------------------------------|
|----------------5---------------|----------------5---------------|

| | | | | | | |
|--------3-----------------------|3-------------------------------|
|--------------------5-----------|--------------------------------|
|--------4---------------4-------|--------------------------------|
|--------------------------------|--------------------------------|
|----------------5---------------|----------------0-------2-------|
|3-------------------------------|3-------3-----------------------|

| | | | | | | |
|--------------------------------|--------------------------------|
|--------1-----------------------|--------------------------------|
|----------------3---------------|----2-----------0---------------|
|--------2---------------2-------|--------3---------------0-------|
|3---------------3---------------|--------------------------------|
|--------------------------------|1---------------3---------------|

| | | | | | | |
|--------------------------------|----0-----------3---------------|
|----1-----------3---------------|--------------------------------|
|--------0-----------------------|--------0---------------0-------|
|------------------------0-------|--------------------------------|
|3-------------------------------|3-------------------------------|
|----------------3---------------|----------------3---------------|

| | | | | | | |
|--------------------------------|--------------------------------|
|--------1-----------------------|------------------------------3/|
|----------------3---------------|----2-----------0---------------|
|--------2---------------2-------|--------3-----------------------|
|3---------------3---------------|--------------------------------|
|--------------------------------|1---------------3---------------|

| | | | | | | |
|--------0-----------------------|--------------------------------|
|4---------------3-------1-------|----------------1---------------|
|--------------------------------|2-------0-----------------------|
|--------------------------------|--------------------------------|
|--------------------------------|--------------------------------|
|--------------------------------|--------------------------------|

| | | | | | | |
|--------------------------------|--------------------------------|
|1-------3---3-------------------|--------------------------------|
|----------------2-------0-------|--------------------------------|
|--------------------------------|2---0-------------------0---2---|
|--------------------------------|--------2-------3---------------|
|--------------------------------|--------------------------------|

| | | | | | | |
|--------------------------------|1b------0b----------------------|
|----0-----------1---------------|0b------1b----------------------|
|0-------2-----------2---0-------|0b------0b----------------------|
|--------------------------------|0b------2b----------------------|
|--------------------------------|2b------3b----------------------|
|--------------------------------|3b------3b----------------------|

| | | |
|--------------------------------|
|--------------------------------|
|--------------------------------|
|--------------------------------|
|--------------------------------|
|--------------------------------|

Created with TablEdit, Tablature Editor